Holy Grail (from Under One Roof)


Ok... I am the biggest fan of Holy Grail ever and I can tell you the chord progression on the electric guitar are the standard chords E, A, C#m and B. Acoustically, mark plays the equivalent but with a capo on four. If you don't understand that, just put a capo on the fourth fret and play a C, F, Am and G. The bridge (or interlude) on the acoustic is C, C9, Am, F. C9 is a standard C chord with the G string held down with the pinky on four. This is all written relative to the capo. 
When Mark plays it live, a little bit of string picking is audible and this goes like this:
(Capo on 4)
* = The real note that is being played.

   C(E*)        C9(E9*)       Am(C#m*)        F(A*)
e-0--0----------0--0------------0--0------------1
b-1----1--1-----1----1--1-------1----1--1-------1
g-0------0--0---3------3--3-----2------2--2-----2
d-2-------------2---------------2---------------3
a-3-------------3---------------0---------------3
e-0-------------0---------------0---------------1

The piano riff converted to guitar goes: 
E--0-7-5-4-2--0-0-02----7-5-4-2-0--4-0-2
B-0-------------------0-----------------
G------------------------------------------------------
D------------------------------------------------
A------------------------------------------------
E ------------------------------------------------

I can also play it on piano, but I couldn't be bothered writing it in here. 

That's Holy Grail Tabbed to the best of my ability. Any questions comments or flaws you may have to report, email me at either marianas_trench@hotmail.com or Fredricson_ray@yahoo.co.uk. Cheers!