Love All Over Again
  Em
E-------------------|-----------------|-----------------|------------------|
B-------------------|-----------------|-----------------|------------------|
G-------------------|-----------------|-----------------|------------------|
D-----2---0-2-------|-----------------|-----2---0-2-----|-----------0------|
A-------------------|-1-0---0---2-----|---------------0-|-2---2---2--------|
E-0-----------------|-----3-------3---|-0---------------|------------------|

|Em       |G    D   |Em        |G    D   |Em        |G    D   |Em        |G    D   |

||:Em                |G       D        |Em                    |G       D           |
  1.Party's over, the dawn is red       Search lights swinging way overhead    I be-

|A                         |    A7  Bm7    |Em        |G     D    |Em              |
 lieve I'm looking for love all over again                         Which way danger

|G         D      |Em                     |G           D       |A                  |
 which way home  I wander in the wasteland through the unknown     Looking for love

|    A7  Bm7     |Em         |G     D       |A            |                        |
 all over again                     Somebody said          Look around and you will

|Em            |                     |A                  |                         |
 find           Wake up and open your mind                Leave your despair behind
                                ___________________________________________________
                               |1.                                                 |
|C             |D              |Em          |G     D     |Em          |G     D   :||
    Looking for love all over a-gain
 ______________
|2.
|Em            |             |              |               |           |          |
 gain  (riff as in intro)                          (end riff)(half time feel)

|A7          |             |Em7           |             |A            |            |

|Em            |               |A7                |               |Em7             |
       I made a promise           I just could not keep

|                    |A                |             |Em          |                |
 Visions of freedom       Lurking in my sleep                      Day in day out I

|A7               |              |Em7               |             |A               |         
 sowed the seed                                But I   left behind all the dreams I

|                 |Em             |                  |A7                  |        |
 did not need     (normal time)    Mother knows every-thing's gonna be all right

|Em7           |               |A                   |               |              |
          Those dreams of hope  they grow like weeds all through the night

|            |Em           |              |A             |             |C          |

|D               |Em               |G          D            |Em                    |
                 3.Found myself now I'm coming down          I've been crawling all

|G         D       |A                     |      A7  Bm7   |Em                     |
 over this town   a-round and around and a-round all over a-gain

|G       D       |A                |                     |Em                  |
 Can you feel the wind          The end has never been so near

|                      |A                  |                    |C                 |
 Love without favour or fear                You're long gone but I'm still here for


|D             |A        |                        |Em        |                     |
 love  Somebody said      Look around and you will find       Wake up and open your

|A          |                  |C                 |D                  |            
 mind        Leaving despair be-hind   Looking for love all over again

 Em
E-------------------|-----------------|-----------------|------------------|
B-------------------|-----------------|-----------------|------------------|
G-------------------|-----------------|-----------------|------------------|
D-----2---0-2-------|-----------------|-----2---0-2-----|-----------0------|
A-------------------|-1-0---0---2-----|---------------0-|-2---2---2--------|
E-0-----------------|-----3-------3---|-0---------------|------------------|

E-------------------|-----------------|-----------------|------------------|
B-------------------|-----------------|-----------------|------------------|
G-------------------|-----------------|-----------------|------------------|
D-----2---0-2-------|-----------------|-----2---0-2-----|------------------|
A-------------------|-1-0---0---2-----|---------------0-|-2---2---2--------|
E-0-----------------|-----3-------3---|-0---------------|------------------|

2.Take a look into the rising sun
  Tomorrow has finally come
  Nothing to lose but love all over again
  There is no heaven, there is no hell
  Here I am in the here and now
  On my hands and knees all over again
  All the way home
  The end has never been so near
  Love without favour or fear
  You're long gone but I'm still here
  For love all over again