Say Goodbye
  Am  
G------------------------|-------------------------|------------------|------------|
D--bass riff-------------|-------------------------|------------------|------------|
A------0-----3--0--------|------0-----3--0---------|-(cont. sim.)-----|------------|
E---3--------------------|---3---------------------|------------------|------------|

|         |         |         |         |                      |                   |
                                    Well just the other night I come home     after

|                        |                  |Em              |                     |
 three months of constant grind and travel         And I went snivelling     I went

|D                         |                  |Am                  |               |
 crawling around to my girl-friend's house and   she came down hard upon me

|                         |                     |Em               |                |
 And she ground her finger into my breastbone         And she said_________

|D           |                |Am                      |                           |
          She said_____         "You don't make me feel_____ like I'm a woman__ any

|          |         |Em          |                                 |D             |
 more                          And you don't make me feel like I'm a woman any more

|           |Am NC                      |                       |                  |
             You don't make me feel like I'm a woman any more_________
%
|Am              |                        |                    |Em                 |
       And I know______ I know it's been a long time______                    Seems

|                 |D              |             |Am           |                    |  
 like it's been go-ing on forever_____    And my heart          My heart is beating

|               |             |Em             |                         |
 too big_____________                     It's beating too big   for the

|D                         |                     |Am          |                    |
 space that's meant to hold it            So good-night         Goodnight my little

|             |          |Em             |                    |Am                  |
 lovely             As we turn             As we turn down the lights

|            |         |              |             |        |Em                   |
     Say good-bye       Goodbye to the naked truth       Your skin is looking weary

                                                            Fine
|             |Am                          |                  ||
      And your eyes are closing down on the day

     Am
E-||-----------------|-----------------|----------------|-----------------|
B-||-----------------|-----------------|----------------|-----------------|
G-||o-----2-----2----|-2---2-0---0-2-0-|-----2-----2----|-2---2-0---0-2-0-|
D-||o-----2-----2----|-2-------2-------|-----2-----2----|-2-------2-------|
A-||--0--------------|-----------------|-0--------------|-----------------|
E-||-----------------|-----------------|----------------|-----------------|
  
  D                                  Am                         Rpt ad lib then DS%
E----------------|-----------------|----------------|-------------------||   al fine
B-----3-----3----|-3---3-1---1-3-1-|----------------|-------------------||
G-----2-----2----|-2-------2-------|-----2-----2----|-2---2-0---0-2-0--o||
D-0--------------|-----------------|-----2-----2----|-2-------2--------o||
A----------------|-----------------|-0--------------|-------------------||
E----------------|-----------------|----------------|-------------------||

I know, I know it's been a long time
Seems like it's been going on forever
But just as black is white
Yeah and just as night is day
The light is going to leave you
And you're gonna fade away
So goodnight, goodbye my lovely
As we turn, as we turn down the lights
Say goodnight, goodnight to the naked truth
Your skin is looking weary
And your eyes are closing down on the day