Stuck On You
  N.C.                                                               
E---------------|-----------------|---------------|-----------------|(repeat sim)  |
B---------------|-----------------|---------------|-----------------|
G-------2---0---|-----------------|-2-0-----------|-----------------|
D-0-2-----------|-----------------|-------0---2---|-----------------|
A---------------|-----------------|---------------|-----------------|
E---------------|-----------------|---------------|-----------------|

|        |        |        ||:N.C.               |                  |Em            |
                              1.I've been hearing round the town

|             |N.C.               |                     |Em           |            |
               You've been out and getting round

|N.C.                 |                      |Em           |             |
 Whether it's right or whether it's true

|N.C.                  |                   |Em           |            |            |
 I'm stuck here and I'm stuck on you                                   (intro riff)

|         |          |          |C        D             |G            Am           |
                                 Oh______ no I heard you talk in your sleep

|C                  D           |G             Am        |C              D         |
 You keep your head down and you stare at your feet       You won't look up but you

|G          Am        |C                           |D                              |
 won't look away       You give the same answers no matter what I say
 ________________________________________________  _______________
|1.                                              ||2.
|Em         |           |           |           :||Em            |                 |
                                                                   No matter what I

|             |             |             |             |             |            |
 say

|N.C.             |               |            |             ||
 I've been hearing round the town


2.I've been hearing round the town
  You've been out and messing around
  Whether it's right or whether it's true
  I'm stuck here and I'm stuck on you
  Oh, no I heard you talk in your sleep
  You keep your head down and you stare at your feet
  You won't look up but you won't look away
  You give the same answers no matter what I say
  No matter what I say


Guitar in verses:
  Em
E-----3---2-------|-3-----2-0---0---|
B-------0---0-----|---0-------3-----|
G-------------0---|-----0-----------|
D-----------------|-----------------|
A---2-------------|-----------------|
E-0---------------|-----------------|