Throw Your Arms Around Me
  B                 E                  A
E-----------------|------------------|-------------------------|-----------------|
B-----4---5-4-----|-------9-10-9-----|----------14-15-14----14-|---15--14--15-14-|
G---4---4-----4---|-----9--------9---|-------14----------14----|-----14--14------|
D-4-------------4-|---9------------9-|----14-------------------|-----------------|
A-----------------|-7----------------|-12----------------------|--------1.I will |
E-----------------|------------------|-------------------------|-----------------|

||:E                         |A              |E                        |B          |
   come for you at night time          I will raise you from your sleep      I will

|E                      |A             |E                        |B                |
 kiss you in four places        As I go running along your street            I will

|E                          |A                     |E                            |
 squeeze the life out of you               You will make me laugh and make me cry

|B                 |E              |A              |E                              |
        And we will never forget it        You will make me call your name and I'll

|A                          |B      Bsus4     |B                 |E                |
 shout it to the blue summer sky                       And we may never meet again

|A                |E                                 |B                         |
                So shed your skin and let's get start-ed            And you will

|E              |A              |B      Bsus4    |B               |E               |
 throw________________ your arms around me                You will throw___________
                                                     __________________
                                                    |1.
|A                 |B      Bsus4     |B             |E
 ________ your arms around me                      E-------------------|
                                                   B--------9-10-9-----|
                                                   G------9--------9---|
                                                   D----9------------9-|
                                                   A--7----------------|
                                                   E-------------------|
 _____________________________________________________________________________
  A                         B                                                 |
E-------------------------|-------------------------|------------------------||
B----------14-15-14-------|----------16-17-16----16-|----17----16----17-16---||
G-------14----------14----|-------16----------16----|-------16----16--------o||
D----14----------------14-|----16-------------------|-----------------------o||
A-12----------------------|-14----------------------|------------------------||
E-------------------------|-------------------------|------------------------||
 _______________
|2.
|E              |A              |B              |               |E                 |
                                                                      Hold__________

|A             |B     Bsus4     |B              |E                 |A              |
 ______________ me____________                       Hold___________________________

|B      Bsus4     |B               ||:E              |A            |B      Bsus4   |
 me______________          You will   throw______________ your arms around me
 ____________________  ____________
|Rpt ad lib          ||Last time
|B                  :||A           |             |B             ||
         And you will

2.I dreamed of you at night time            So if you disappear out of view
  And I watched you in your sleep           You know I will never say goodbye
  I met you in high places                  And though I try to forget it
  I touched your head and                   You will make me call your name
     touched your feet                      And I'll shout it to the blue summer sky

Alternative guitar (good for acoustics)
The same as above, but an ocatve lower.

Intro:
  B                 E                 A
E-----------------|-----------------|-----------------|----------------|
B-----------------|-----------------|-------2-3-2---2-|---3---2---3-2--|
G-----------------|-------1-2-1-----|-----2-------2---|-----2---2------|
D-----1---2-1-----|-----2-------2---|---2-------------|----------------|
A---2---2-----2---|---2-----------2-|-0---------------|----------------|
E-2-------------2-|-0---------------|-----------------|----------------|

Middle break:
  E                 A                 B
E-----------------|-----------------|-----------------|----------------|
B-----------------|-------2-3-2-----|-------4-5-4---4-|---5---4---5-4--|
G-------1-2-1-----|-----2-------2---|-----4-------4---|-----4---4------|
D-----2-------2---|---2-----------2-|---4-------------|----------------|
A---2-----------2-|-0---------------|-2---------------|----------------|
E-0---------------|-----------------|-----------------|----------------|