Throw Your Arms Around Me (from Under One Roof)


I couldn't find the proper acoustic part on the net so I figured it out myself. It is heard clearly on the under one roof version of the song and goes like this: 

E---------------------------0--------------------0-------------0----0
B-----------------------------0--------------------0-----------0-------          x2
G-------8--9--8-----------------------------6-------6----------------6
D-----9-----9---9------6-------6---------7------------7--7---7--------7
A---------------------7------------7----0------------------------------
E-7----------------0--------------------------------- ----------------

That was a rush job just then. Through the second time through, the electric comes in: 

E--------------------------------------------------------
B---4---5-4------------9-10-9-------------14-15-14
G--4--4-----4--------9---------9--------14---------14
D-4-----------4----9-------------9----14-------------14
A----------------7------------------12------------------
E--------------------------------------------------- 

Another rush job. Now, the guitaring is wrong everywhere I looked and again I had to figure it out. The chords are right, the progression is E, A, E, B but not completely. You play the bar version on the E, A, D, and G strings but not on the B and High E strings. To do this, simply leave the last two string open (B, E). For those who didn't understand that: 
  |E| |A|  |B|
E-0--0---0 < ---{LEAVE OPEN!}
B-0--0---0 < ---
G-1--6---8
D-2--7---9
A-2--7---9
E-0--5---7 

That's the only difference. E, A, E, B through the song, until it changes here: 

E                                                                  A 
'You will make me call your name, and ill shout it to the blue 
               B 
summer, sky...' 
{B}
E-0
B-0
G-9 < ---ONLY CHANGE IS FROM 8 TO 9, THEN GO BACK. ALL OF THIS CAN
D-9        BE HEARD ON THE UNDER ONE ROOF VERSION OF THE SONG.
A-9
E-7 

From there, the song flows along. If you see any inaccuracy, which there may be many, please email me with them. If you have any problems with anything else by Hunters and collectors please email me. If you idolise the song holy grail like I do, please email me marianas_trench@hotmail.com or fredricson_ray@yahoo.co.uk! It would be nice to know I wasn't alone.