Djulpan (Seven Sisters Stars)
|Em        |           |           |           |           |           |           |

                    Am
E-----------------|-----------------|-----------------|-----------------|
B-----------------|-----------------|-----------------|-----------------|
G-----------------|-----------------|-----------------|-----------------|
D-----------------|-----------------|-----------------|-2---------------|
A-----------------|-0---------------|-------------3---|-------------3---|
E-------0-0---3---|-----------------|-----------------|-----------------|

                    Em
E-----------------|---------------|----------------|--------------|----------------|
B-----------------|---------------|----------------|--------------|----------------|
G-2---------------|---------------|----------------|--------------|----------------|
D---------2-0-----|---------------|----------------|--------------|----------------|
A-----3-------3-2-|---------------|----------------|--------------|----------------|
E-----------------|-0-------------|------------3-2-|-0------------|--------0-0---3-|

  Am
E-----------------|-----------------|-----------------|-----------------|
B-----------------|-----------------|-----------------|-----------------|
G-----------------|-----------------|-----------------|-2---------------|
D-----------------|-----------------|-2---------------|---------2-0-----|
A-0---------------|-------------3---|-------------3---|-----3-------3-2-|
E-----------------|-----------------|-----------------|-----------------|

  Em                                                         |Am        |          |
E---------------|----------------|--------------|    Nhaltjar-ra
B---------------|----------------|--------------|
G---------------|----------------|--------------|
D---------------|----------------|--------------|
A---------------|----------------|--------------|
E-0-------------|------------3-2-|-0------------|

|           |            |Em           |            |           |Am       |        |
 wagandja            Wapu-rarryina                      Nhaltjar-ra

|           |           |Em         |           |            |Am        |          |
 gunbilktja       ngurra-na                         Nhapa dhu-wala

|           |          |Em         |          |          |C           |G/B         |
 garrkarryur - - ru - - na                                Djulpangungu mudwuthunara

|Am       |Em         |C           |G/B         |D        |           |Em          |
 gawulunha-ra          Djulpangungu mudwuthunara gawulunha-ra

|          |          |           |Am          |            |           |          |
                            Dudung-thun                      marrwala        Wurrun-

|Em        |          |           |           |Am           |          |           |
 hara                                   Bulnha gawuluma                 nhumun

|         |Em        |           |           |           |C           |G/B         |
   wurryur-ra                                             Djulpangungu mudwuthunara

|Am       |Em         |C           |G/B         |D        |           |Em          |
 gawulunha-ra          Djulpangungu mudwuthunara gawulunha-ra

|            |             |             |Am            |             |            |
                                         (guitar as in intro)

|            |Em           |             |              |             |Am          |

|            |             |             |Em            |             |            |



                C                G/B              Am                Em
E-------------|----------------|----------------|-----------------|----------------|
B-------------|----------------|----------------|-----------------|----------------|
G-----------4-|-5----------4---|-4--------------|-----4-----------|--------------4-|
D-------5-7---|--------------7-|------------7-5-|-7-------7---5-4-|----------5-7---|
A-------------|----------------|----------------|-----------------|-7--------------|
E-------------|----------------|----------------|-----------------|----------------|

  C                G/B               D     
E----------------|-----------------|----------------|-----------------|
B----------------|-----------------|---------7------|-----------------|
G-5----------4---|-4---------------|-----7-------7--|-----------------|
D--------------7-|-------------7-5-|-7--------------|-7---------------|
A----------------|-----------------|----------------|-----------------|
E----------------|-----------------|----------------|-----------------|

|C           |G/B         |Am       |Em        |C           |G/B         |D        |
 Djulpangungu mudwuthunara gawulunha-ra         Djulpangungu mudwuthunara gawulunha-

|         |C           |G/B         |Am       |Em        |C           |G/B         |
 ra        Djulpangungu mudwuthunara gawulunha-ra         Djulpangungu mudwuthunara

|D        |            |Em           |              |               |              |
 gawulunha-ra

|C           |              |D             |                |Em               ||


What happened? Why is the place so silence?
Why is the sea or ocean so calm?
What for is so clear sky?

Because of seven sisters stars are rising
Because of seven sisters stars are rising

Moving slow along the milky way
So slowly, pouring black inks into calm shell

Because of seven sisters stars are rising
Because of seven sisters stars are rising